999
Inkscape export via "Better Better DXF Output" (http://tim.cexx.org/?p=590)
  0
SECTION
  2
HEADER
  9
$ACADVER
  1
AC1014
  9
$HANDSEED
  5
FFFF
  0
ENDSEC
  0
SECTION
  2
TABLES
  0
TABLE
  2
VPORT
  5
8
330
0
100
AcDbSymbolTable
 70
     4
  0
VPORT
  5
2E
330
8
100
AcDbSymbolTableRecord
100
AcDbViewportTableRecord
  2
*ACTIVE
 70
     0
 10
0.0
 20
0.0
 11
1.0
 21
1.0
 12
4.25
 22
5.5
 13
0.0
 23
0.0
 14
10.0
 24
10.0
 15
10.0
 25
10.0
 16
0.0
 26
0.0
 36
1.0
 17
0.0
 27
0.0
 37
0.0
 40
11
 41
1.24
 42
50.0
 43
0.0
 44
0.0
 50
0.0
 51
0.0
 71
     0
 72
   100
 73
     1
 74
     3
 75
     0
 76
     0
 77
     0
 78
     0
  0
ENDTAB
  0
TABLE
  2
LTYPE
  5
5
330
0
100
AcDbSymbolTable
 70
     1
  0
LTYPE
  5
14
330
5
100
AcDbSymbolTableRecord
100
AcDbLinetypeTableRecord
  2
BYBLOCK
 70
     0
  3

 72
    65
 73
     0
 40
0.0
  0
LTYPE
  5
15
330
5
100
AcDbSymbolTableRecord
100
AcDbLinetypeTableRecord
  2
BYLAYER
 70
     0
  3

 72
    65
 73
     0
 40
0.0
  0
LTYPE
  5
16
330
5
100
AcDbSymbolTableRecord
100
AcDbLinetypeTableRecord
  2
CONTINUOUS
 70
     0
  3
Solid line
 72
    65
 73
     0
 40
0.0
  0
ENDTAB
  0
TABLE
  2
STYLE
  5
3
330
0
100
AcDbSymbolTable
 70
     1
  0
STYLE
  5
11
330
3
100
AcDbSymbolTableRecord
100
AcDbTextStyleTableRecord
  2
STANDARD
 70
     0
 40
0.0
 41
1.0
 50
0.0
 71
     0
 42
2.5
  3
txt
  4

  0
ENDTAB
  0
TABLE
  2
VIEW
  5
6
330
0
100
AcDbSymbolTable
 70
     0
  0
ENDTAB
  0
TABLE
  2
UCS
  5
7
330
0
100
AcDbSymbolTable
 70
     0
  0
ENDTAB
  0
TABLE
  2
APPID
  5
9
330
0
100
AcDbSymbolTable
 70
     2
  0
APPID
  5
12
330
9
100
AcDbSymbolTableRecord
100
AcDbRegAppTableRecord
  2
ACAD
 70
     0
  0
ENDTAB
  0
TABLE
  2
DIMSTYLE
  5
A
330
0
100
AcDbSymbolTable
 70
     1
  0
DIMSTYLE
105
27
330
A
100
AcDbSymbolTableRecord
100
AcDbDimStyleTableRecord
  2
ISO-25
 70
     0
  3

  4

  5

  6

  7

 40
1.0
 41
2.5
 42
0.625
 43
3.75
 44
1.25
 45
0.0
 46
0.0
 47
0.0
 48
0.0
140
2.5
141
2.5
142
0.0
143
0.03937007874016
144
1.0
145
0.0
146
1.0
147
0.625
 71
     0
 72
     0
 73
     0
 74
     0
 75
     0
 76
     0
 77
     1
 78
     8
170
     0
171
     3
172
     1
173
     0
174
     0
175
     0
176
     0
177
     0
178
     0
270
     2
271
     2
272
     2
273
     2
274
     3
340
11
275
     0
280
     0
281
     0
282
     0
283
     0
284
     8
285
     0
286
     0
287
     3
288
     0
  0
ENDTAB
  0
TABLE
  2
BLOCK_RECORD
  5
1
330
0
100
AcDbSymbolTable
 70
     1
  0
BLOCK_RECORD
  5
1F
330
1
100
AcDbSymbolTableRecord
100
AcDbBlockTableRecord
  2
*MODEL_SPACE
  0
BLOCK_RECORD
  5
1B
330
1
100
AcDbSymbolTableRecord
100
AcDbBlockTableRecord
  2
*PAPER_SPACE
  0
ENDTAB
0
TABLE
2
LAYER
5
2
330
0
100
AcDbSymbolTable
70
1
0
LAYER
5
10
330
2
100
AcDbSymbolTableRecord
100
AcDbLayerTableRecord
2
Default
70
0
62
7
6
CONTINUOUS
0
ENDTAB
0
ENDSEC
  0
SECTION
  2
BLOCKS
  0
BLOCK
  5
20
330
1F
100
AcDbEntity
  8
0
100
AcDbBlockBegin
  2
*MODEL_SPACE
 70
     0
 10
0.0
 20
0.0
 30
0.0
  3
*MODEL_SPACE
  1

  0
ENDBLK
  5
21
330
1F
100
AcDbEntity
  8
0
100
AcDbBlockEnd
  0
BLOCK
  5
1C
330
1B
100
AcDbEntity
 67
     1
  8
0
100
AcDbBlockBegin
  2
*PAPER_SPACE
  1

  0
ENDBLK
  5
1D
330
1B
100
AcDbEntity
 67
     1
  8
0
100
AcDbBlockEnd
  0
ENDSEC
  0
SECTION
  2
ENTITIES
0
LINE
8
Default
62
4
5
100
100
AcDbEntity
100
AcDbLine
10
93.338359
20
-66.102280
30
0.0
11
84.669906
21
-72.750283
31
0.0
0
LINE
8
Default
62
4
5
101
100
AcDbEntity
100
AcDbLine
10
84.669906
20
-72.750283
30
0.0
11
76.773309
21
-78.805585
31
0.0
0
LINE
8
Default
62
4
5
102
100
AcDbEntity
100
AcDbLine
10
76.773309
20
-78.805585
30
0.0
11
69.288668
21
-84.571823
31
0.0
0
LINE
8
Default
62
4
5
103
100
AcDbEntity
100
AcDbLine
10
69.288668
20
-84.571823
30
0.0
11
61.811803
21
-90.324620
31
0.0
0
LINE
8
Default
62
4
5
104
100
AcDbEntity
100
AcDbLine
10
61.811803
20
-90.324620
30
0.0
11
60.541295
21
-91.193575
31
0.0
0
LINE
8
Default
62
4
5
105
100
AcDbEntity
100
AcDbLine
10
60.541295
20
-91.193575
30
0.0
11
59.237306
21
-91.810473
31
0.0
0
LINE
8
Default
62
4
5
106
100
AcDbEntity
100
AcDbLine
10
59.237306
20
-91.810473
30
0.0
11
58.183924
21
-92.130890
31
0.0
0
LINE
8
Default
62
4
5
107
100
AcDbEntity
100
AcDbLine
10
58.183924
20
-92.130890
30
0.0
11
57.074729
21
-92.295950
31
0.0
0
LINE
8
Default
62
4
5
108
100
AcDbEntity
100
AcDbLine
10
57.074729
20
-92.295950
30
0.0
11
57.074729
21
-84.200996
31
0.0
0
LINE
8
Default
62
4
5
109
100
AcDbEntity
100
AcDbLine
10
57.074729
20
-84.200996
30
0.0
11
57.074729
21
-76.106041
31
0.0
0
LINE
8
Default
62
4
5
10a
100
AcDbEntity
100
AcDbLine
10
57.074729
20
-76.106041
30
0.0
11
57.165561
21
-75.095963
31
0.0
0
LINE
8
Default
62
4
5
10b
100
AcDbEntity
100
AcDbLine
10
57.165561
20
-75.095963
30
0.0
11
57.442514
21
-74.178846
31
0.0
0
LINE
8
Default
62
4
5
10c
100
AcDbEntity
100
AcDbLine
10
57.442514
20
-74.178846
30
0.0
11
58.050060
21
-73.426335
31
0.0
0
LINE
8
Default
62
4
5
10d
100
AcDbEntity
100
AcDbLine
10
58.050060
20
-73.426335
30
0.0
11
59.060769
21
-72.906308
31
0.0
0
LINE
8
Default
62
4
5
10e
100
AcDbEntity
100
AcDbLine
10
59.060769
20
-72.906308
30
0.0
11
60.074623
21
-72.628917
31
0.0
0
LINE
8
Default
62
4
5
10f
100
AcDbEntity
100
AcDbLine
10
60.074623
20
-72.628917
30
0.0
11
61.135078
21
-72.413476
31
0.0
0
LINE
8
Default
62
4
5
110
100
AcDbEntity
100
AcDbLine
10
61.135078
20
-72.413476
30
0.0
11
62.195442
21
-72.257454
31
0.0
0
LINE
8
Default
62
4
5
111
100
AcDbEntity
100
AcDbLine
10
62.195442
20
-72.257454
30
0.0
11
63.209388
21
-72.163382
31
0.0
0
LINE
8
Default
62
4
5
112
100
AcDbEntity
100
AcDbLine
10
63.209388
20
-72.163382
30
0.0
11
63.209388
21
-70.953368
31
0.0
0
LINE
8
Default
62
4
5
113
100
AcDbEntity
100
AcDbLine
10
63.209388
20
-70.953368
30
0.0
11
63.209388
21
-69.743355
31
0.0
0
LINE
8
Default
62
4
5
114
100
AcDbEntity
100
AcDbLine
10
63.209388
20
-69.743355
30
0.0
11
53.459398
21
-69.743355
31
0.0
0
LINE
8
Default
62
4
5
115
100
AcDbEntity
100
AcDbLine
10
53.459398
20
-69.743355
30
0.0
11
43.709411
21
-69.743355
31
0.0
0
LINE
8
Default
62
4
5
116
100
AcDbEntity
100
AcDbLine
10
43.709411
20
-69.743355
30
0.0
11
43.578442
21
-70.613919
31
0.0
0
LINE
8
Default
62
4
5
117
100
AcDbEntity
100
AcDbLine
10
43.578442
20
-70.613919
30
0.0
11
43.246001
21
-72.104536
31
0.0
0
LINE
8
Default
62
4
5
118
100
AcDbEntity
100
AcDbLine
10
43.246001
20
-72.104536
30
0.0
11
42.805024
21
-73.776966
31
0.0
0
LINE
8
Default
62
4
5
119
100
AcDbEntity
100
AcDbLine
10
42.805024
20
-73.776966
30
0.0
11
42.348605
21
-75.201289
31
0.0
0
LINE
8
Default
62
4
5
11a
100
AcDbEntity
100
AcDbLine
10
42.348605
20
-75.201289
30
0.0
11
37.773356
21
-86.999841
31
0.0
0
LINE
8
Default
62
4
5
11b
100
AcDbEntity
100
AcDbLine
10
37.773356
20
-86.999841
30
0.0
11
33.198107
21
-98.798394
31
0.0
0
LINE
8
Default
62
4
5
11c
100
AcDbEntity
100
AcDbLine
10
33.198107
20
-98.798394
30
0.0
11
27.773275
21
-84.270874
31
0.0
0
LINE
8
Default
62
4
5
11d
100
AcDbEntity
100
AcDbLine
10
27.773275
20
-84.270874
30
0.0
11
22.348441
21
-69.743355
31
0.0
0
LINE
8
Default
62
4
5
11e
100
AcDbEntity
100
AcDbLine
10
22.348441
20
-69.743355
30
0.0
11
12.223311
21
-69.743355
31
0.0
0
LINE
8
Default
62
4
5
11f
100
AcDbEntity
100
AcDbLine
10
12.223311
20
-69.743355
30
0.0
11
2.098182
21
-69.743355
31
0.0
0
LINE
8
Default
62
4
5
120
100
AcDbEntity
100
AcDbLine
10
2.098182
20
-69.743355
30
0.0
11
2.098182
21
-70.953368
31
0.0
0
LINE
8
Default
62
4
5
121
100
AcDbEntity
100
AcDbLine
10
2.098182
20
-70.953368
30
0.0
11
2.098182
21
-72.163382
31
0.0
0
LINE
8
Default
62
4
5
122
100
AcDbEntity
100
AcDbLine
10
2.098182
20
-72.163382
30
0.0
11
3.426281
21
-72.304475
31
0.0
0
LINE
8
Default
62
4
5
123
100
AcDbEntity
100
AcDbLine
10
3.426281
20
-72.304475
30
0.0
11
4.738880
21
-72.538523
31
0.0
0
LINE
8
Default
62
4
5
124
100
AcDbEntity
100
AcDbLine
10
4.738880
20
-72.538523
30
0.0
11
6.023238
21
-72.985901
31
0.0
0
LINE
8
Default
62
4
5
125
100
AcDbEntity
100
AcDbLine
10
6.023238
20
-72.985901
30
0.0
11
7.276599
21
-73.774282
31
0.0
0
LINE
8
Default
62
4
5
126
100
AcDbEntity
100
AcDbLine
10
7.276599
20
-73.774282
30
0.0
11
8.147221
21
-74.690328
31
0.0
0
LINE
8
Default
62
4
5
127
100
AcDbEntity
100
AcDbLine
10
8.147221
20
-74.690328
30
0.0
11
8.769807
21
-75.885369
31
0.0
0
LINE
8
Default
62
4
5
128
100
AcDbEntity
100
AcDbLine
10
8.769807
20
-75.885369
30
0.0
11
9.140241
21
-77.358865
31
0.0
0
LINE
8
Default
62
4
5
129
100
AcDbEntity
100
AcDbLine
10
9.140241
20
-77.358865
30
0.0
11
9.262640
21
-79.173370
31
0.0
0
LINE
8
Default
62
4
5
12a
100
AcDbEntity
100
AcDbLine
10
9.262640
20
-79.173370
30
0.0
11
9.262640
21
-90.070850
31
0.0
0
LINE
8
Default
62
4
5
12b
100
AcDbEntity
100
AcDbLine
10
9.262640
20
-90.070850
30
0.0
11
9.262640
21
-100.968327
31
0.0
0
LINE
8
Default
62
4
5
12c
100
AcDbEntity
100
AcDbLine
10
9.262640
20
-100.968327
30
0.0
11
9.154160
21
-104.348376
31
0.0
0
LINE
8
Default
62
4
5
12d
100
AcDbEntity
100
AcDbLine
10
9.154160
20
-104.348376
30
0.0
11
8.828653
21
-106.860247
31
0.0
0
LINE
8
Default
62
4
5
12e
100
AcDbEntity
100
AcDbLine
10
8.828653
20
-106.860247
30
0.0
11
8.191635
21
-108.611237
31
0.0
0
LINE
8
Default
62
4
5
12f
100
AcDbEntity
100
AcDbLine
10
8.191635
20
-108.611237
30
0.0
11
7.151552
21
-109.773107
31
0.0
0
LINE
8
Default
62
4
5
130
100
AcDbEntity
100
AcDbLine
10
7.151552
20
-109.773107
30
0.0
11
5.872610
21
-110.463126
31
0.0
0
LINE
8
Default
62
4
5
131
100
AcDbEntity
100
AcDbLine
10
5.872610
20
-110.463126
30
0.0
11
4.268115
21
-110.920597
31
0.0
0
LINE
8
Default
62
4
5
132
100
AcDbEntity
100
AcDbLine
10
4.268115
20
-110.920597
30
0.0
11
2.773670
21
-111.177141
31
0.0
0
LINE
8
Default
62
4
5
133
100
AcDbEntity
100
AcDbLine
10
2.773670
20
-111.177141
30
0.0
11
1.759819
21
-111.325161
31
0.0
0
LINE
8
Default
62
4
5
134
100
AcDbEntity
100
AcDbLine
10
1.759819
20
-111.325161
30
0.0
11
1.759819
21
-112.487363
31
0.0
0
LINE
8
Default
62
4
5
135
100
AcDbEntity
100
AcDbLine
10
1.759819
20
-112.487363
30
0.0
11
1.759819
21
-113.649564
31
0.0
0
LINE
8
Default
62
4
5
136
100
AcDbEntity
100
AcDbLine
10
1.759819
20
-113.649564
30
0.0
11
1.726719
21
-113.649564
31
0.0
0
LINE
8
Default
62
4
5
137
100
AcDbEntity
100
AcDbLine
10
1.726719
20
-113.649564
30
0.0
11
1.693618
21
-113.649564
31
0.0
0
LINE
8
Default
62
4
5
138
100
AcDbEntity
100
AcDbLine
10
1.693618
20
-113.649564
30
0.0
11
1.693618
21
-114.859577
31
0.0
0
LINE
8
Default
62
4
5
139
100
AcDbEntity
100
AcDbLine
10
1.693618
20
-114.859577
30
0.0
11
1.693618
21
-116.069591
31
0.0
0
LINE
8
Default
62
4
5
13a
100
AcDbEntity
100
AcDbLine
10
1.693618
20
-116.069591
30
0.0
11
2.661519
21
-116.210684
31
0.0
0
LINE
8
Default
62
4
5
13b
100
AcDbEntity
100
AcDbLine
10
2.661519
20
-116.210684
30
0.0
11
3.892974
21
-116.444732
31
0.0
0
LINE
8
Default
62
4
5
13c
100
AcDbEntity
100
AcDbLine
10
3.892974
20
-116.444732
30
0.0
11
5.159618
21
-116.762758
31
0.0
0
LINE
8
Default
62
4
5
13d
100
AcDbEntity
100
AcDbLine
10
5.159618
20
-116.762758
30
0.0
11
6.224733
21
-117.158236
31
0.0
0
LINE
8
Default
62
4
5
13e
100
AcDbEntity
100
AcDbLine
10
6.224733
20
-117.158236
30
0.0
11
7.247218
21
-117.785199
31
0.0
0
LINE
8
Default
62
4
5
13f
100
AcDbEntity
100
AcDbLine
10
7.247218
20
-117.785199
30
0.0
11
7.835633
21
-118.489619
31
0.0
0
LINE
8
Default
62
4
5
140
100
AcDbEntity
100
AcDbLine
10
7.835633
20
-118.489619
30
0.0
11
8.112536
21
-119.320166
31
0.0
0
LINE
8
Default
62
4
5
141
100
AcDbEntity
100
AcDbLine
10
8.112536
20
-119.320166
30
0.0
11
8.203418
21
-120.321189
31
0.0
0
LINE
8
Default
62
4
5
142
100
AcDbEntity
100
AcDbLine
10
8.203418
20
-120.321189
30
0.0
11
8.203418
21
-135.915286
31
0.0
0
LINE
8
Default
62
4
5
143
100
AcDbEntity
100
AcDbLine
10
8.203418
20
-135.915286
30
0.0
11
8.203418
21
-151.509383
31
0.0
0
LINE
8
Default
62
4
5
144
100
AcDbEntity
100
AcDbLine
10
8.203418
20
-151.509383
30
0.0
11
8.094939
21
-152.588466
31
0.0
0
LINE
8
Default
62
4
5
145
100
AcDbEntity
100
AcDbLine
10
8.094939
20
-152.588466
30
0.0
11
7.769431
21
-153.466001
31
0.0
0
LINE
8
Default
62
4
5
146
100
AcDbEntity
100
AcDbLine
10
7.769431
20
-153.466001
30
0.0
11
7.167608
21
-154.154438
31
0.0
0
LINE
8
Default
62
4
5
147
100
AcDbEntity
100
AcDbLine
10
7.167608
20
-154.154438
30
0.0
11
6.224733
21
-154.672337
31
0.0
0
LINE
8
Default
62
4
5
148
100
AcDbEntity
100
AcDbLine
10
6.224733
20
-154.672337
30
0.0
11
5.372306
21
-154.890915
31
0.0
0
LINE
8
Default
62
4
5
149
100
AcDbEntity
100
AcDbLine
10
5.372306
20
-154.890915
30
0.0
11
4.054800
21
-155.047478
31
0.0
0
LINE
8
Default
62
4
5
14a
100
AcDbEntity
100
AcDbLine
10
4.054800
20
-155.047478
30
0.0
11
2.703674
21
-155.154930
31
0.0
0
LINE
8
Default
62
4
5
14b
100
AcDbEntity
100
AcDbLine
10
2.703674
20
-155.154930
30
0.0
11
1.693618
21
-155.231370
31
0.0
0
LINE
8
Default
62
4
5
14c
100
AcDbEntity
100
AcDbLine
10
1.693618
20
-155.231370
30
0.0
11
1.693618
21
-156.441383
31
0.0
0
LINE
8
Default
62
4
5
14d
100
AcDbEntity
100
AcDbLine
10
1.693618
20
-156.441383
30
0.0
11
1.693618
21
-157.651398
31
0.0
0
LINE
8
Default
62
4
5
14e
100
AcDbEntity
100
AcDbLine
10
1.693618
20
-157.651398
30
0.0
11
13.381835
21
-157.651398
31
0.0
0
LINE
8
Default
62
4
5
14f
100
AcDbEntity
100
AcDbLine
10
13.381835
20
-157.651398
30
0.0
11
25.070052
21
-157.651398
31
0.0
0
LINE
8
Default
62
4
5
150
100
AcDbEntity
100
AcDbLine
10
25.070052
20
-157.651398
30
0.0
11
25.070052
21
-156.441383
31
0.0
0
LINE
8
Default
62
4
5
151
100
AcDbEntity
100
AcDbLine
10
25.070052
20
-156.441383
30
0.0
11
25.070052
21
-155.231370
31
0.0
0
LINE
8
Default
62
4
5
152
100
AcDbEntity
100
AcDbLine
10
25.070052
20
-155.231370
30
0.0
11
23.978107
21
-155.074808
31
0.0
0
LINE
8
Default
62
4
5
153
100
AcDbEntity
100
AcDbLine
10
23.978107
20
-155.074808
30
0.0
11
22.870696
21
-154.856229
31
0.0
0
LINE
8
Default
62
4
5
154
100
AcDbEntity
100
AcDbLine
10
22.870696
20
-154.856229
30
0.0
11
21.918743
21
-154.609817
31
0.0
0
LINE
8
Default
62
4
5
155
100
AcDbEntity
100
AcDbLine
10
21.918743
20
-154.609817
30
0.0
11
21.230373
21
-154.363397
31
0.0
0
LINE
8
Default
62
4
5
156
100
AcDbEntity
100
AcDbLine
10
21.230373
20
-154.363397
30
0.0
11
20.223370
21
-153.774432
31
0.0
0
LINE
8
Default
62
4
5
157
100
AcDbEntity
100
AcDbLine
10
20.223370
20
-153.774432
30
0.0
11
19.619474
21
-153.061437
31
0.0
0
LINE
8
Default
62
4
5
158
100
AcDbEntity
100
AcDbLine
10
19.619474
20
-153.061437
30
0.0
11
19.316408
21
-152.201500
31
0.0
0
LINE
8
Default
62
4
5
159
100
AcDbEntity
100
AcDbLine
10
19.316408
20
-152.201500
30
0.0
11
19.214910
21
-151.171021
31
0.0
0
LINE
8
Default
62
4
5
15a
100
AcDbEntity
100
AcDbLine
10
19.214910
20
-151.171021
30
0.0
11
19.214910
21
-144.256657
31
0.0
0
LINE
8
Default
62
4
5
15b
100
AcDbEntity
100
AcDbLine
10
19.214910
20
-144.256657
30
0.0
11
19.214910
21
-137.342293
31
0.0
0
LINE
8
Default
62
4
5
15c
100
AcDbEntity
100
AcDbLine
10
19.214910
20
-137.342293
30
0.0
11
20.020360
21
-137.342293
31
0.0
0
LINE
8
Default
62
4
5
15d
100
AcDbEntity
100
AcDbLine
10
20.020360
20
-137.342293
30
0.0
11
20.825809
21
-137.342293
31
0.0
0
LINE
8
Default
62
4
5
15e
100
AcDbEntity
100
AcDbLine
10
20.825809
20
-137.342293
30
0.0
11
25.313261
21
-142.962834
31
0.0
0
LINE
8
Default
62
4
5
15f
100
AcDbEntity
100
AcDbLine
10
25.313261
20
-142.962834
30
0.0
11
28.917086
21
-147.544658
31
0.0
0
LINE
8
Default
62
4
5
160
100
AcDbEntity
100
AcDbLine
10
28.917086
20
-147.544658
30
0.0
11
32.272404
21
-152.101938
31
0.0
0
LINE
8
Default
62
4
5
161
100
AcDbEntity
100
AcDbLine
10
32.272404
20
-152.101938
30
0.0
11
36.015342
21
-157.651398
31
0.0
0
LINE
8
Default
62
4
5
162
100
AcDbEntity
100
AcDbLine
10
36.015342
20
-157.651398
30
0.0
11
44.540606
21
-157.651398
31
0.0
0
LINE
8
Default
62
4
5
163
100
AcDbEntity
100
AcDbLine
10
44.540606
20
-157.651398
30
0.0
11
53.065869
21
-157.651398
31
0.0
0
LINE
8
Default
62
4
5
164
100
AcDbEntity
100
AcDbLine
10
53.065869
20
-157.651398
30
0.0
11
53.065869
21
-157.680820
31
0.0
0
LINE
8
Default
62
4
5
165
100
AcDbEntity
100
AcDbLine
10
53.065869
20
-157.680820
30
0.0
11
53.065869
21
-157.710243
31
0.0
0
LINE
8
Default
62
4
5
166
100
AcDbEntity
100
AcDbLine
10
53.065869
20
-157.710243
30
0.0
11
73.698624
21
-157.710243
31
0.0
0
LINE
8
Default
62
4
5
167
100
AcDbEntity
100
AcDbLine
10
73.698624
20
-157.710243
30
0.0
11
94.331380
21
-157.710243
31
0.0
0
LINE
8
Default
62
4
5
168
100
AcDbEntity
100
AcDbLine
10
94.331380
20
-157.710243
30
0.0
11
94.750655
21
-150.858404
31
0.0
0
LINE
8
Default
62
4
5
169
100
AcDbEntity
100
AcDbLine
10
94.750655
20
-150.858404
30
0.0
11
95.169930
21
-144.006563
31
0.0
0
LINE
8
Default
62
4
5
16a
100
AcDbEntity
100
AcDbLine
10
95.169930
20
-144.006563
30
0.0
11
94.037152
21
-144.006563
31
0.0
0
LINE
8
Default
62
4
5
16b
100
AcDbEntity
100
AcDbLine
10
94.037152
20
-144.006563
30
0.0
11
92.904373
21
-144.006563
31
0.0
0
LINE
8
Default
62
4
5
16c
100
AcDbEntity
100
AcDbLine
10
92.904373
20
-144.006563
30
0.0
11
91.997427
21
-145.950362
31
0.0
0
LINE
8
Default
62
4
5
16d
100
AcDbEntity
100
AcDbLine
10
91.997427
20
-145.950362
30
0.0
11
90.454923
21
-148.684792
31
0.0
0
LINE
8
Default
62
4
5
16e
100
AcDbEntity
100
AcDbLine
10
90.454923
20
-148.684792
30
0.0
11
88.688454
21
-151.389813
31
0.0
0
LINE
8
Default
62
4
5
16f
100
AcDbEntity
100
AcDbLine
10
88.688454
20
-151.389813
30
0.0
11
87.108076
21
-153.304175
31
0.0
0
LINE
8
Default
62
4
5
170
100
AcDbEntity
100
AcDbLine
10
87.108076
20
-153.304175
30
0.0
11
86.402065
21
-153.822641
31
0.0
0
LINE
8
Default
62
4
5
171
100
AcDbEntity
100
AcDbLine
10
86.402065
20
-153.822641
30
0.0
11
85.401553
21
-154.201571
31
0.0
0
LINE
8
Default
62
4
5
172
100
AcDbEntity
100
AcDbLine
10
85.401553
20
-154.201571
30
0.0
11
84.238024
21
-154.475715
31
0.0
0
LINE
8
Default
62
4
5
173
100
AcDbEntity
100
AcDbLine
10
84.238024
20
-154.475715
30
0.0
11
82.981525
21
-154.672337
31
0.0
0
LINE
8
Default
62
4
5
174
100
AcDbEntity
100
AcDbLine
10
82.981525
20
-154.672337
30
0.0
11
81.743138
21
-154.795291
31
0.0
0
LINE
8
Default
62
4
5
175
100
AcDbEntity
100
AcDbLine
10
81.743138
20
-154.795291
30
0.0
11
80.318760
21
-154.856229
31
0.0
0
LINE
8
Default
62
4
5
176
100
AcDbEntity
100
AcDbLine
10
80.318760
20
-154.856229
30
0.0
11
78.908258
21
-154.878692
31
0.0
0
LINE
8
Default
62
4
5
177
100
AcDbEntity
100
AcDbLine
10
78.908258
20
-154.878692
30
0.0
11
77.714840
21
-154.885652
31
0.0
0
LINE
8
Default
62
4
5
178
100
AcDbEntity
100
AcDbLine
10
77.714840
20
-154.885652
30
0.0
11
75.628244
21
-154.840214
31
0.0
0
LINE
8
Default
62
4
5
179
100
AcDbEntity
100
AcDbLine
10
75.628244
20
-154.840214
30
0.0
11
74.022275
21
-154.701759
31
0.0
0
LINE
8
Default
62
4
5
17a
100
AcDbEntity
100
AcDbLine
10
74.022275
20
-154.701759
30
0.0
11
72.830868
21
-154.412679
31
0.0
0
LINE
8
Default
62
4
5
17b
100
AcDbEntity
100
AcDbLine
10
72.830868
20
-154.412679
30
0.0
11
71.918543
21
-153.922055
31
0.0
0
LINE
8
Default
62
4
5
17c
100
AcDbEntity
100
AcDbLine
10
71.918543
20
-153.922055
30
0.0
11
71.235470
21
-153.171149
31
0.0
0
LINE
8
Default
62
4
5
17d
100
AcDbEntity
100
AcDbLine
10
71.235470
20
-153.171149
30
0.0
11
70.800476
21
-152.156685
31
0.0
0
LINE
8
Default
62
4
5
17e
100
AcDbEntity
100
AcDbLine
10
70.800476
20
-152.156685
30
0.0
11
70.590939
21
-150.776750
31
0.0
0
LINE
8
Default
62
4
5
17f
100
AcDbEntity
100
AcDbLine
10
70.590939
20
-150.776750
30
0.0
11
70.520959
21
-148.993732
31
0.0
0
LINE
8
Default
62
4
5
180
100
AcDbEntity
100
AcDbLine
10
70.520959
20
-148.993732
30
0.0
11
70.520959
21
-142.653113
31
0.0
0
LINE
8
Default
62
4
5
181
100
AcDbEntity
100
AcDbLine
10
70.520959
20
-142.653113
30
0.0
11
70.520959
21
-136.312494
31
0.0
0
LINE
8
Default
62
4
5
182
100
AcDbEntity
100
AcDbLine
10
70.520959
20
-136.312494
30
0.0
11
72.782840
21
-136.312494
31
0.0
0
LINE
8
Default
62
4
5
183
100
AcDbEntity
100
AcDbLine
10
72.782840
20
-136.312494
30
0.0
11
75.044719
21
-136.312494
31
0.0
0
LINE
8
Default
62
4
5
184
100
AcDbEntity
100
AcDbLine
10
75.044719
20
-136.312494
30
0.0
11
76.767797
21
-136.420982
31
0.0
0
LINE
8
Default
62
4
5
185
100
AcDbEntity
100
AcDbLine
10
76.767797
20
-136.420982
30
0.0
11
78.273873
21
-136.746481
31
0.0
0
LINE
8
Default
62
4
5
186
100
AcDbEntity
100
AcDbLine
10
78.273873
20
-136.746481
30
0.0
11
79.576883
21
-137.329528
31
0.0
0
LINE
8
Default
62
4
5
187
100
AcDbEntity
100
AcDbLine
10
79.576883
20
-137.329528
30
0.0
11
80.693901
21
-138.269112
31
0.0
0
LINE
8
Default
62
4
5
188
100
AcDbEntity
100
AcDbLine
10
80.693901
20
-138.269112
30
0.0
11
81.388199
21
-139.323551
31
0.0
0
LINE
8
Default
62
4
5
189
100
AcDbEntity
100
AcDbLine
10
81.388199
20
-139.323551
30
0.0
11
82.113552
21
-140.998079
31
0.0
0
LINE
8
Default
62
4
5
18a
100
AcDbEntity
100
AcDbLine
10
82.113552
20
-140.998079
30
0.0
11
82.742605
21
-142.786483
31
0.0
0
LINE
8
Default
62
4
5
18b
100
AcDbEntity
100
AcDbLine
10
82.742605
20
-142.786483
30
0.0
11
83.077150
21
-144.249301
31
0.0
0
LINE
8
Default
62
4
5
18c
100
AcDbEntity
100
AcDbLine
10
83.077150
20
-144.249301
30
0.0
11
84.254063
21
-144.249301
31
0.0
0
LINE
8
Default
62
4
5
18d
100
AcDbEntity
100
AcDbLine
10
84.254063
20
-144.249301
30
0.0
11
85.430975
21
-144.249301
31
0.0
0
LINE
8
Default
62
4
5
18e
100
AcDbEntity
100
AcDbLine
10
85.430975
20
-144.249301
30
0.0
11
85.430975
21
-135.073057
31
0.0
0
LINE
8
Default
62
4
5
18f
100
AcDbEntity
100
AcDbLine
10
85.430975
20
-135.073057
30
0.0
11
85.430975
21
-125.896815
31
0.0
0
LINE
8
Default
62
4
5
190
100
AcDbEntity
100
AcDbLine
10
85.430975
20
-125.896815
30
0.0
11
84.254063
21
-125.896815
31
0.0
0
LINE
8
Default
62
4
5
191
100
AcDbEntity
100
AcDbLine
10
84.254063
20
-125.896815
30
0.0
11
83.077150
21
-125.896815
31
0.0
0
LINE
8
Default
62
4
5
192
100
AcDbEntity
100
AcDbLine
10
83.077150
20
-125.896815
30
0.0
11
82.727103
21
-127.347332
31
0.0
0
LINE
8
Default
62
4
5
193
100
AcDbEntity
100
AcDbLine
10
82.727103
20
-127.347332
30
0.0
11
82.113552
21
-129.030345
31
0.0
0
LINE
8
Default
62
4
5
194
100
AcDbEntity
100
AcDbLine
10
82.113552
20
-129.030345
30
0.0
11
81.403704
21
-130.555815
31
0.0
0
LINE
8
Default
62
4
5
195
100
AcDbEntity
100
AcDbLine
10
81.403704
20
-130.555815
30
0.0
11
80.693901
21
-131.538641
31
0.0
0
LINE
8
Default
62
4
5
196
100
AcDbEntity
100
AcDbLine
10
80.693901
20
-131.538641
30
0.0
11
79.483356
21
-132.500725
31
0.0
0
LINE
8
Default
62
4
5
197
100
AcDbEntity
100
AcDbLine
10
79.483356
20
-132.500725
30
0.0
11
78.148826
21
-133.090695
31
0.0
0
LINE
8
Default
62
4
5
198
100
AcDbEntity
100
AcDbLine
10
78.148826
20
-133.090695
30
0.0
11
76.674268
21
-133.393764
31
0.0
0
LINE
8
Default
62
4
5
199
100
AcDbEntity
100
AcDbLine
10
76.674268
20
-133.393764
30
0.0
11
75.044719
21
-133.495259
31
0.0
0
LINE
8
Default
62
4
5
19a
100
AcDbEntity
100
AcDbLine
10
75.044719
20
-133.495259
30
0.0
11
72.782840
21
-133.495259
31
0.0
0
LINE
8
Default
62
4
5
19b
100
AcDbEntity
100
AcDbLine
10
72.782840
20
-133.495259
30
0.0
11
70.520959
21
-133.495259
31
0.0
0
LINE
8
Default
62
4
5
19c
100
AcDbEntity
100
AcDbLine
10
70.520959
20
-133.495259
30
0.0
11
70.520959
21
-124.999419
31
0.0
0
LINE
8
Default
62
4
5
19d
100
AcDbEntity
100
AcDbLine
10
70.520959
20
-124.999419
30
0.0
11
70.520959
21
-116.503578
31
0.0
0
LINE
8
Default
62
4
5
19e
100
AcDbEntity
100
AcDbLine
10
70.520959
20
-116.503578
30
0.0
11
73.713336
21
-116.503578
31
0.0
0
LINE
8
Default
62
4
5
19f
100
AcDbEntity
100
AcDbLine
10
73.713336
20
-116.503578
30
0.0
11
76.905712
21
-116.503578
31
0.0
0
LINE
8
Default
62
4
5
1a0
100
AcDbEntity
100
AcDbLine
10
76.905712
20
-116.503578
30
0.0
11
78.130650
21
-116.517529
31
0.0
0
LINE
8
Default
62
4
5
1a1
100
AcDbEntity
100
AcDbLine
10
78.130650
20
-116.517529
30
0.0
11
79.634679
21
-116.562424
31
0.0
0
LINE
8
Default
62
4
5
1a2
100
AcDbEntity
100
AcDbLine
10
79.634679
20
-116.562424
30
0.0
11
81.122653
21
-116.640992
31
0.0
0
LINE
8
Default
62
4
5
1a3
100
AcDbEntity
100
AcDbLine
10
81.122653
20
-116.640992
30
0.0
11
82.238599
21
-116.812518
31
0.0
0
LINE
8
Default
62
4
5
1a4
100
AcDbEntity
100
AcDbLine
10
82.238599
20
-116.812518
30
0.0
11
84.419143
21
-117.804401
31
0.0
0
LINE
8
Default
62
4
5
1a5
100
AcDbEntity
100
AcDbLine
10
84.419143
20
-117.804401
30
0.0
11
86.615244
21
-119.850424
31
0.0
0
LINE
8
Default
62
4
5
1a6
100
AcDbEntity
100
AcDbLine
10
86.615244
20
-119.850424
30
0.0
11
88.489153
21
-122.407350
31
0.0
0
LINE
8
Default
62
4
5
1a7
100
AcDbEntity
100
AcDbLine
10
88.489153
20
-122.407350
30
0.0
11
89.711996
21
-124.933217
31
0.0
0
LINE
8
Default
62
4
5
1a8
100
AcDbEntity
100
AcDbLine
10
89.711996
20
-124.933217
30
0.0
11
90.888909
21
-124.933217
31
0.0
0
LINE
8
Default
62
4
5
1a9
100
AcDbEntity
100
AcDbLine
10
90.888909
20
-124.933217
30
0.0
11
92.065822
21
-124.933217
31
0.0
0
LINE
8
Default
62
4
5
1aa
100
AcDbEntity
100
AcDbLine
10
92.065822
20
-124.933217
30
0.0
11
92.065822
21
-120.909646
31
0.0
0
LINE
8
Default
62
4
5
1ab
100
AcDbEntity
100
AcDbLine
10
92.065822
20
-120.909646
30
0.0
11
92.065822
21
-116.886075
31
0.0
0
LINE
8
Default
62
4
5
1ac
100
AcDbEntity
100
AcDbLine
10
92.065822
20
-116.886075
30
0.0
11
93.875326
21
-117.930585
31
0.0
0
LINE
8
Default
62
4
5
1ad
100
AcDbEntity
100
AcDbLine
10
93.875326
20
-117.930585
30
0.0
11
95.684830
21
-118.975095
31
0.0
0
LINE
8
Default
62
4
5
1ae
100
AcDbEntity
100
AcDbLine
10
95.684830
20
-118.975095
30
0.0
11
96.287998
21
-117.926908
31
0.0
0
LINE
8
Default
62
4
5
1af
100
AcDbEntity
100
AcDbLine
10
96.287998
20
-117.926908
30
0.0
11
96.891165
21
-116.878719
31
0.0
0
LINE
8
Default
62
4
5
1b0
100
AcDbEntity
100
AcDbLine
10
96.891165
20
-116.878719
30
0.0
11
96.094708
21
-116.295130
31
0.0
0
LINE
8
Default
62
4
5
1b1
100
AcDbEntity
100
AcDbLine
10
96.094708
20
-116.295130
30
0.0
11
95.250843
21
-115.576759
31
0.0
0
LINE
8
Default
62
4
5
1b2
100
AcDbEntity
100
AcDbLine
10
95.250843
20
-115.576759
30
0.0
11
94.471630
21
-114.768048
31
0.0
0
LINE
8
Default
62
4
5
1b3
100
AcDbEntity
100
AcDbLine
10
94.471630
20
-114.768048
30
0.0
11
93.875326
21
-113.921725
31
0.0
0
LINE
8
Default
62
4
5
1b4
100
AcDbEntity
100
AcDbLine
10
93.875326
20
-113.921725
30
0.0
11
93.345181
21
-112.810027
31
0.0
0
LINE
8
Default
62
4
5
1b5
100
AcDbEntity
100
AcDbLine
10
93.345181
20
-112.810027
30
0.0
11
93.058843
21
-111.803282
31
0.0
0
LINE
8
Default
62
4
5
1b6
100
AcDbEntity
100
AcDbLine
10
93.058843
20
-111.803282
30
0.0
11
92.974055
21
-110.816683
31
0.0
0
LINE
8
Default
62
4
5
1b7
100
AcDbEntity
100
AcDbLine
10
92.974055
20
-110.816683
30
0.0
11
93.022064
21
-109.817241
31
0.0
0
LINE
8
Default
62
4
5
1b8
100
AcDbEntity
100
AcDbLine
10
93.022064
20
-109.817241
30
0.0
11
93.930712
21
-102.895510
31
0.0
0
LINE
8
Default
62
4
5
1b9
100
AcDbEntity
100
AcDbLine
10
93.930712
20
-102.895510
30
0.0
11
95.140507
21
-94.429104
31
0.0
0
LINE
8
Default
62
4
5
1ba
100
AcDbEntity
100
AcDbLine
10
95.140507
20
-94.429104
30
0.0
11
96.715615
21
-83.503212
31
0.0
0
LINE
8
Default
62
4
5
1bb
100
AcDbEntity
100
AcDbLine
10
96.715615
20
-83.503212
30
0.0
11
98.715381
21
-69.206388
31
0.0
0
LINE
8
Default
62
4
5
1bc
100
AcDbEntity
100
AcDbLine
10
98.715381
20
-69.206388
30
0.0
11
96.026869
21
-67.654334
31
0.0
0
LINE
8
Default
62
4
5
1bd
100
AcDbEntity
100
AcDbLine
10
96.026869
20
-67.654334
30
0.0
11
93.338359
21
-66.102280
31
0.0
0
LINE
8
Default
62
4
5
1be
100
AcDbEntity
100
AcDbLine
10
12.918425
20
-73.869906
30
0.0
11
18.486695
21
-88.985882
31
0.0
0
LINE
8
Default
62
4
5
1bf
100
AcDbEntity
100
AcDbLine
10
18.486695
20
-88.985882
30
0.0
11
24.054964
21
-104.101858
31
0.0
0
LINE
8
Default
62
4
5
1c0
100
AcDbEntity
100
AcDbLine
10
24.054964
20
-104.101858
30
0.0
11
24.836861
21
-106.234295
31
0.0
0
LINE
8
Default
62
4
5
1c1
100
AcDbEntity
100
AcDbLine
10
24.836861
20
-106.234295
30
0.0
11
25.820334
21
-108.971335
31
0.0
0
LINE
8
Default
62
4
5
1c2
100
AcDbEntity
100
AcDbLine
10
25.820334
20
-108.971335
30
0.0
11
26.728397
21
-111.505356
31
0.0
0
LINE
8
Default
62
4
5
1c3
100
AcDbEntity
100
AcDbLine
10
26.728397
20
-111.505356
30
0.0
11
27.217918
21
-113.031685
31
0.0
0
LINE
8
Default
62
4
5
1c4
100
AcDbEntity
100
AcDbLine
10
27.217918
20
-113.031685
30
0.0
11
29.170859
21
-113.031685
31
0.0
0
LINE
8
Default
62
4
5
1c5
100
AcDbEntity
100
AcDbLine
10
29.170859
20
-113.031685
30
0.0
11
31.123798
21
-113.031685
31
0.0
0
LINE
8
Default
62
4
5
1c6
100
AcDbEntity
100
AcDbLine
10
31.123798
20
-113.031685
30
0.0
11
38.689140
21
-93.700889
31
0.0
0
LINE
8
Default
62
4
5
1c7
100
AcDbEntity
100
AcDbLine
10
38.689140
20
-93.700889
30
0.0
11
46.254485
21
-74.370094
31
0.0
0
LINE
8
Default
62
4
5
1c8
100
AcDbEntity
100
AcDbLine
10
46.254485
20
-74.370094
30
0.0
11
46.254485
21
-90.802741
31
0.0
0
LINE
8
Default
62
4
5
1c9
100
AcDbEntity
100
AcDbLine
10
46.254485
20
-90.802741
30
0.0
11
46.254485
21
-107.235388
31
0.0
0
LINE
8
Default
62
4
5
1ca
100
AcDbEntity
100
AcDbLine
10
46.254485
20
-107.235388
30
0.0
11
46.128381
21
-108.366357
31
0.0
0
LINE
8
Default
62
4
5
1cb
100
AcDbEntity
100
AcDbLine
10
46.128381
20
-108.366357
30
0.0
11
45.754297
21
-109.280275
31
0.0
0
LINE
8
Default
62
4
5
1cc
100
AcDbEntity
100
AcDbLine
10
45.754297
20
-109.280275
30
0.0
11
45.096883
21
-110.001812
31
0.0
0
LINE
8
Default
62
4
5
1cd
100
AcDbEntity
100
AcDbLine
10
45.096883
20
-110.001812
30
0.0
11
44.113975
21
-110.552812
31
0.0
0
LINE
8
Default
62
4
5
1ce
100
AcDbEntity
100
AcDbLine
10
44.113975
20
-110.552812
30
0.0
11
43.306445
21
-110.792271
31
0.0
0
LINE
8
Default
62
4
5
1cf
100
AcDbEntity
100
AcDbLine
10
43.306445
20
-110.792271
30
0.0
11
42.002887
21
-111.016221
31
0.0
0
LINE
8
Default
62
4
5
1d0
100
AcDbEntity
100
AcDbLine
10
42.002887
20
-111.016221
30
0.0
11
40.599336
21
-111.201698
31
0.0
0
LINE
8
Default
62
4
5
1d1
100
AcDbEntity
100
AcDbLine
10
40.599336
20
-111.201698
30
0.0
11
39.428390
21
-111.325161
31
0.0
0
LINE
8
Default
62
4
5
1d2
100
AcDbEntity
100
AcDbLine
10
39.428390
20
-111.325161
30
0.0
11
39.428390
21
-112.487363
31
0.0
0
LINE
8
Default
62
4
5
1d3
100
AcDbEntity
100
AcDbLine
10
39.428390
20
-112.487363
30
0.0
11
39.428390
21
-113.649564
31
0.0
0
LINE
8
Default
62
4
5
1d4
100
AcDbEntity
100
AcDbLine
10
39.428390
20
-113.649564
30
0.0
11
35.430563
21
-113.649564
31
0.0
0
LINE
8
Default
62
4
5
1d5
100
AcDbEntity
100
AcDbLine
10
35.430563
20
-113.649564
30
0.0
11
31.432737
21
-113.649564
31
0.0
0
LINE
8
Default
62
4
5
1d6
100
AcDbEntity
100
AcDbLine
10
31.432737
20
-113.649564
30
0.0
11
31.432737
21
-114.859577
31
0.0
0
LINE
8
Default
62
4
5
1d7
100
AcDbEntity
100
AcDbLine
10
31.432737
20
-114.859577
30
0.0
11
31.432737
21
-116.069591
31
0.0
0
LINE
8
Default
62
4
5
1d8
100
AcDbEntity
100
AcDbLine
10
31.432737
20
-116.069591
30
0.0
11
33.430114
21
-116.233147
31
0.0
0
LINE
8
Default
62
4
5
1d9
100
AcDbEntity
100
AcDbLine
10
33.430114
20
-116.233147
30
0.0
11
34.838429
21
-116.474155
31
0.0
0
LINE
8
Default
62
4
5
1da
100
AcDbEntity
100
AcDbLine
10
34.838429
20
-116.474155
30
0.0
11
35.676490
21
-116.816738
31
0.0
0
LINE
8
Default
62
4
5
1db
100
AcDbEntity
100
AcDbLine
10
35.676490
20
-116.816738
30
0.0
11
35.956497
21
-117.283283
31
0.0
0
LINE
8
Default
62
4
5
1dc
100
AcDbEntity
100
AcDbLine
10
35.956497
20
-117.283283
30
0.0
11
35.662570
21
-118.568698
31
0.0
0
LINE
8
Default
62
4
5
1dd
100
AcDbEntity
100
AcDbLine
10
35.662570
20
-118.568698
30
0.0
11
34.779584
21
-120.071095
31
0.0
0
LINE
8
Default
62
4
5
1de
100
AcDbEntity
100
AcDbLine
10
34.779584
20
-120.071095
30
0.0
11
33.299689
21
-121.968962
31
0.0
0
LINE
8
Default
62
4
5
1df
100
AcDbEntity
100
AcDbLine
10
33.299689
20
-121.968962
30
0.0
11
31.153221
21
-124.440385
31
0.0
0
LINE
8
Default
62
4
5
1e0
100
AcDbEntity
100
AcDbLine
10
31.153221
20
-124.440385
30
0.0
11
29.020257
21
-126.706430
31
0.0
0
LINE
8
Default
62
4
5
1e1
100
AcDbEntity
100
AcDbLine
10
29.020257
20
-126.706430
30
0.0
11
26.158696
21
-129.530533
31
0.0
0
LINE
8
Default
62
4
5
1e2
100
AcDbEntity
100
AcDbLine
10
26.158696
20
-129.530533
30
0.0
11
23.136226
21
-132.403397
31
0.0
0
LINE
8
Default
62
4
5
1e3
100
AcDbEntity
100
AcDbLine
10
23.136226
20
-132.403397
30
0.0
11
20.516870
21
-134.826642
31
0.0
0
LINE
8
Default
62
4
5
1e4
100
AcDbEntity
100
AcDbLine
10
20.516870
20
-134.826642
30
0.0
11
19.865890
21
-134.826642
31
0.0
0
LINE
8
Default
62
4
5
1e5
100
AcDbEntity
100
AcDbLine
10
19.865890
20
-134.826642
30
0.0
11
19.214910
21
-134.826642
31
0.0
0
LINE
8
Default
62
4
5
1e6
100
AcDbEntity
100
AcDbLine
10
19.214910
20
-134.826642
30
0.0
11
19.214910
21
-127.419446
31
0.0
0
LINE
8
Default
62
4
5
1e7
100
AcDbEntity
100
AcDbLine
10
19.214910
20
-127.419446
30
0.0
11
19.214910
21
-120.012250
31
0.0
0
LINE
8
Default
62
4
5
1e8
100
AcDbEntity
100
AcDbLine
10
19.214910
20
-120.012250
30
0.0
11
19.316408
21
-119.002174
31
0.0
0
LINE
8
Default
62
4
5
1e9
100
AcDbEntity
100
AcDbLine
10
19.316408
20
-119.002174
30
0.0
11
19.619474
21
-118.085055
31
0.0
0
LINE
8
Default
62
4
5
1ea
100
AcDbEntity
100
AcDbLine
10
19.619474
20
-118.085055
30
0.0
11
20.223371
21
-117.332546
31
0.0
0
LINE
8
Default
62
4
5
1eb
100
AcDbEntity
100
AcDbLine
10
20.223371
20
-117.332546
30
0.0
11
21.230373
21
-116.812518
31
0.0
0
LINE
8
Default
62
4
5
1ec
100
AcDbEntity
100
AcDbLine
10
21.230373
20
-116.812518
30
0.0
11
22.284829
21
-116.542087
31
0.0
0
LINE
8
Default
62
4
5
1ed
100
AcDbEntity
100
AcDbLine
10
22.284829
20
-116.542087
30
0.0
11
23.525353
21
-116.349108
31
0.0
0
LINE
8
Default
62
4
5
1ee
100
AcDbEntity
100
AcDbLine
10
23.525353
20
-116.349108
30
0.0
11
24.788306
21
-116.186127
31
0.0
0
LINE
8
Default
62
4
5
1ef
100
AcDbEntity
100
AcDbLine
10
24.788306
20
-116.186127
30
0.0
11
25.849757
21
-116.069591
31
0.0
0
LINE
8
Default
62
4
5
1f0
100
AcDbEntity
100
AcDbLine
10
25.849757
20
-116.069591
30
0.0
11
25.849757
21
-114.859577
31
0.0
0
LINE
8
Default
62
4
5
1f1
100
AcDbEntity
100
AcDbLine
10
25.849757
20
-114.859577
30
0.0
11
25.849757
21
-113.649564
31
0.0
0
LINE
8
Default
62
4
5
1f2
100
AcDbEntity
100
AcDbLine
10
25.849757
20
-113.649564
30
0.0
11
23.260548
21
-113.649564
31
0.0
0
LINE
8
Default
62
4
5
1f3
100
AcDbEntity
100
AcDbLine
10
23.260548
20
-113.649564
30
0.0
11
20.671340
21
-113.649564
31
0.0
0
LINE
8
Default
62
4
5
1f4
100
AcDbEntity
100
AcDbLine
10
20.671340
20
-113.649564
30
0.0
11
20.671340
21
-112.487363
31
0.0
0
LINE
8
Default
62
4
5
1f5
100
AcDbEntity
100
AcDbLine
10
20.671340
20
-112.487363
30
0.0
11
20.671340
21
-111.325161
31
0.0
0
LINE
8
Default
62
4
5
1f6
100
AcDbEntity
100
AcDbLine
10
20.671340
20
-111.325161
30
0.0
11
19.565015
21
-111.107145
31
0.0
0
LINE
8
Default
62
4
5
1f7
100
AcDbEntity
100
AcDbLine
10
19.565015
20
-111.107145
30
0.0
11
17.854104
21
-110.641080
31
0.0
0
LINE
8
Default
62
4
5
1f8
100
AcDbEntity
100
AcDbLine
10
17.854104
20
-110.641080
30
0.0
11
16.168913
21
-110.038706
31
0.0
0
LINE
8
Default
62
4
5
1f9
100
AcDbEntity
100
AcDbLine
10
16.168913
20
-110.038706
30
0.0
11
15.088359
21
-109.405322
31
0.0
0
LINE
8
Default
62
4
5
1fa
100
AcDbEntity
100
AcDbLine
10
15.088359
20
-109.405322
30
0.0
11
14.098447
21
-108.212445
31
0.0
0
LINE
8
Default
62
4
5
1fb
100
AcDbEntity
100
AcDbLine
10
14.098447
20
-108.212445
30
0.0
11
13.418613
21
-106.492462
31
0.0
0
LINE
8
Default
62
4
5
1fc
100
AcDbEntity
100
AcDbLine
10
13.418613
20
-106.492462
30
0.0
11
13.044487
21
-104.018558
31
0.0
0
LINE
8
Default
62
4
5
1fd
100
AcDbEntity
100
AcDbLine
10
13.044487
20
-104.018558
30
0.0
11
12.918425
21
-100.629964
31
0.0
0
LINE
8
Default
62
4
5
1fe
100
AcDbEntity
100
AcDbLine
10
12.918425
20
-100.629964
30
0.0
11
12.918425
21
-87.249935
31
0.0
0
LINE
8
Default
62
4
5
1ff
100
AcDbEntity
100
AcDbLine
10
12.918425
20
-87.249935
30
0.0
11
12.918425
21
-73.869906
31
0.0
0
LINE
8
Default
62
4
5
200
100
AcDbEntity
100
AcDbLine
10
87.012452
20
-75.017396
30
0.0
11
85.795082
21
-83.516916
31
0.0
0
LINE
8
Default
62
4
5
201
100
AcDbEntity
100
AcDbLine
10
85.795082
20
-83.516916
30
0.0
11
84.577714
21
-92.016433
31
0.0
0
LINE
8
Default
62
4
5
202
100
AcDbEntity
100
AcDbLine
10
84.577714
20
-92.016433
30
0.0
11
79.086680
21
-88.846123
31
0.0
0
LINE
8
Default
62
4
5
203
100
AcDbEntity
100
AcDbLine
10
79.086680
20
-88.846123
30
0.0
11
73.595644
21
-85.675814
31
0.0
0
LINE
8
Default
62
4
5
204
100
AcDbEntity
100
AcDbLine
10
73.595644
20
-85.675814
30
0.0
11
80.304048
21
-80.346605
31
0.0
0
LINE
8
Default
62
4
5
205
100
AcDbEntity
100
AcDbLine
10
80.304048
20
-80.346605
30
0.0
11
87.012452
21
-75.017396
31
0.0
0
LINE
8
Default
62
4
5
206
100
AcDbEntity
100
AcDbLine
10
70.984369
20
-87.713345
30
0.0
11
77.564047
21
-91.508889
31
0.0
0
LINE
8
Default
62
4
5
207
100
AcDbEntity
100
AcDbLine
10
77.564047
20
-91.508889
30
0.0
11
84.143727
21
-95.304433
31
0.0
0
LINE
8
Default
62
4
5
208
100
AcDbEntity
100
AcDbLine
10
84.143727
20
-95.304433
30
0.0
11
83.489069
21
-100.192301
31
0.0
0
LINE
8
Default
62
4
5
209
100
AcDbEntity
100
AcDbLine
10
83.489069
20
-100.192301
30
0.0
11
82.834411
21
-105.080167
31
0.0
0
LINE
8
Default
62
4
5
20a
100
AcDbEntity
100
AcDbLine
10
82.834411
20
-105.080167
30
0.0
11
82.744556
21
-105.573357
31
0.0
0
LINE
8
Default
62
4
5
20b
100
AcDbEntity
100
AcDbLine
10
82.744556
20
-105.573357
30
0.0
11
82.628451
21
-105.926073
31
0.0
0
LINE
8
Default
62
4
5
20c
100
AcDbEntity
100
AcDbLine
10
82.628451
20
-105.926073
30
0.0
11
82.523767
21
-106.204690
31
0.0
0
LINE
8
Default
62
4
5
20d
100
AcDbEntity
100
AcDbLine
10
82.523767
20
-106.204690
30
0.0
11
82.407780
21
-106.440972
31
0.0
0
LINE
8
Default
62
4
5
20e
100
AcDbEntity
100
AcDbLine
10
82.407780
20
-106.440972
30
0.0
11
81.587105
21
-106.730425
31
0.0
0
LINE
8
Default
62
4
5
20f
100
AcDbEntity
100
AcDbLine
10
81.587105
20
-106.730425
30
0.0
11
79.840639
21
-106.360059
31
0.0
0
LINE
8
Default
62
4
5
210
100
AcDbEntity
100
AcDbLine
10
79.840639
20
-106.360059
30
0.0
11
77.816803
21
-105.628361
31
0.0
0
LINE
8
Default
62
4
5
211
100
AcDbEntity
100
AcDbLine
10
77.816803
20
-105.628361
30
0.0
11
76.133363
21
-104.896274
31
0.0
0
LINE
8
Default
62
4
5
212
100
AcDbEntity
100
AcDbLine
10
76.133363
20
-104.896274
30
0.0
11
75.530195
21
-105.944461
31
0.0
0
LINE
8
Default
62
4
5
213
100
AcDbEntity
100
AcDbLine
10
75.530195
20
-105.944461
30
0.0
11
74.927027
21
-106.992650
31
0.0
0
LINE
8
Default
62
4
5
214
100
AcDbEntity
100
AcDbLine
10
74.927027
20
-106.992650
30
0.0
11
80.745391
21
-110.350531
31
0.0
0
LINE
8
Default
62
4
5
215
100
AcDbEntity
100
AcDbLine
10
80.745391
20
-110.350531
30
0.0
11
86.563754
21
-113.708410
31
0.0
0
LINE
8
Default
62
4
5
216
100
AcDbEntity
100
AcDbLine
10
86.563754
20
-113.708410
30
0.0
11
74.919672
21
-113.708410
31
0.0
0
LINE
8
Default
62
4
5
217
100
AcDbEntity
100
AcDbLine
10
74.919672
20
-113.708410
30
0.0
11
63.275589
21
-113.708410
31
0.0
0
LINE
8
Default
62
4
5
218
100
AcDbEntity
100
AcDbLine
10
63.275589
20
-113.708410
30
0.0
11
63.275589
21
-112.516785
31
0.0
0
LINE
8
Default
62
4
5
219
100
AcDbEntity
100
AcDbLine
10
63.275589
20
-112.516785
30
0.0
11
63.275589
21
-111.325161
31
0.0
0
LINE
8
Default
62
4
5
21a
100
AcDbEntity
100
AcDbLine
10
63.275589
20
-111.325161
30
0.0
11
62.338646
21
-111.194740
31
0.0
0
LINE
8
Default
62
4
5
21b
100
AcDbEntity
100
AcDbLine
10
62.338646
20
-111.194740
30
0.0
11
61.076233
21
-110.986799
31
0.0
0
LINE
8
Default
62
4
5
21c
100
AcDbEntity
100
AcDbLine
10
61.076233
20
-110.986799
30
0.0
11
59.874671
21
-110.729747
31
0.0
0
LINE
8
Default
62
4
5
21d
100
AcDbEntity
100
AcDbLine
10
59.874671
20
-110.729747
30
0.0
11
59.060769
21
-110.457188
31
0.0
0
LINE
8
Default
62
4
5
21e
100
AcDbEntity
100
AcDbLine
10
59.060769
20
-110.457188
30
0.0
11
58.050060
21
-109.852718
31
0.0
0
LINE
8
Default
62
4
5
21f
100
AcDbEntity
100
AcDbLine
10
58.050060
20
-109.852718
30
0.0
11
57.442514
21
-109.155228
31
0.0
0
LINE
8
Default
62
4
5
220
100
AcDbEntity
100
AcDbLine
10
57.442514
20
-109.155228
30
0.0
11
57.165561
21
-108.295290
31
0.0
0
LINE
8
Default
62
4
5
221
100
AcDbEntity
100
AcDbLine
10
57.165561
20
-108.295290
30
0.0
11
57.074729
21
-107.264811
31
0.0
0
LINE
8
Default
62
4
5
222
100
AcDbEntity
100
AcDbLine
10
57.074729
20
-107.264811
30
0.0
11
57.074729
21
-101.976059
31
0.0
0
LINE
8
Default
62
4
5
223
100
AcDbEntity
100
AcDbLine
10
57.074729
20
-101.976059
30
0.0
11
57.074729
21
-96.687306
31
0.0
0
LINE
8
Default
62
4
5
224
100
AcDbEntity
100
AcDbLine
10
57.074729
20
-96.687306
30
0.0
11
61.837547
21
-99.438340
31
0.0
0
LINE
8
Default
62
4
5
225
100
AcDbEntity
100
AcDbLine
10
61.837547
20
-99.438340
30
0.0
11
66.600368
21
-102.189374
31
0.0
0
LINE
8
Default
62
4
5
226
100
AcDbEntity
100
AcDbLine
10
66.600368
20
-102.189374
30
0.0
11
67.207213
21
-101.141187
31
0.0
0
LINE
8
Default
62
4
5
227
100
AcDbEntity
100
AcDbLine
10
67.207213
20
-101.141187
30
0.0
11
67.814060
21
-100.092998
31
0.0
0
LINE
8
Default
62
4
5
228
100
AcDbEntity
100
AcDbLine
10
67.814060
20
-100.092998
30
0.0
11
65.410716
21
-98.241048
31
0.0
0
LINE
8
Default
62
4
5
229
100
AcDbEntity
100
AcDbLine
10
65.410716
20
-98.241048
30
0.0
11
63.959670
21
-96.724085
31
0.0
0
LINE
8
Default
62
4
5
22a
100
AcDbEntity
100
AcDbLine
10
63.959670
20
-96.724085
30
0.0
11
63.381885
21
-95.487754
31
0.0
0
LINE
8
Default
62
4
5
22b
100
AcDbEntity
100
AcDbLine
10
63.381885
20
-95.487754
30
0.0
11
63.518327
21
-94.502661
31
0.0
0
LINE
8
Default
62
4
5
22c
100
AcDbEntity
100
AcDbLine
10
63.518327
20
-94.502661
30
0.0
11
63.752662
21
-94.143030
31
0.0
0
LINE
8
Default
62
4
5
22d
100
AcDbEntity
100
AcDbLine
10
63.752662
20
-94.143030
30
0.0
11
64.143562
21
-93.605265
31
0.0
0
LINE
8
Default
62
4
5
22e
100
AcDbEntity
100
AcDbLine
10
64.143562
20
-93.605265
30
0.0
11
64.860563
21
-92.846804
31
0.0
0
LINE
8
Default
62
4
5
22f
100
AcDbEntity
100
AcDbLine
10
64.860563
20
-92.846804
30
0.0
11
66.019267
21
-91.788406
31
0.0
0
LINE
8
Default
62
4
5
230
100
AcDbEntity
100
AcDbLine
10
66.019267
20
-91.788406
30
0.0
11
67.167586
21
-90.805076
31
0.0
0
LINE
8
Default
62
4
5
231
100
AcDbEntity
100
AcDbLine
10
67.167586
20
-90.805076
30
0.0
11
68.476073
21
-89.699385
31
0.0
0
LINE
8
Default
62
4
5
232
100
AcDbEntity
100
AcDbLine
10
68.476073
20
-89.699385
30
0.0
11
69.811321
21
-88.627891
31
0.0
0
LINE
8
Default
62
4
5
233
100
AcDbEntity
100
AcDbLine
10
69.811321
20
-88.627891
30
0.0
11
70.984369
21
-87.713345
31
0.0
0
LINE
8
Default
62
4
5
234
100
AcDbEntity
100
AcDbLine
10
50.557573
20
-113.745188
30
0.0
11
51.811720
21
-113.745188
31
0.0
0
LINE
8
Default
62
4
5
235
100
AcDbEntity
100
AcDbLine
10
51.811720
20
-113.745188
30
0.0
11
53.065869
21
-113.745188
31
0.0
0
LINE
8
Default
62
4
5
236
100
AcDbEntity
100
AcDbLine
10
53.065869
20
-113.745188
30
0.0
11
53.065869
21
-114.936813
31
0.0
0
LINE
8
Default
62
4
5
237
100
AcDbEntity
100
AcDbLine
10
53.065869
20
-114.936813
30
0.0
11
53.065869
21
-116.128437
31
0.0
0
LINE
8
Default
62
4
5
238
100
AcDbEntity
100
AcDbLine
10
53.065869
20
-116.128437
30
0.0
11
53.987260
21
-116.276490
31
0.0
0
LINE
8
Default
62
4
5
239
100
AcDbEntity
100
AcDbLine
10
53.987260
20
-116.276490
30
0.0
11
55.265225
21
-116.533001
31
0.0
0
LINE
8
Default
62
4
5
23a
100
AcDbEntity
100
AcDbLine
10
55.265225
20
-116.533001
30
0.0
11
56.560780
21
-116.859568
31
0.0
0
LINE
8
Default
62
4
5
23b
100
AcDbEntity
100
AcDbLine
10
56.560780
20
-116.859568
30
0.0
11
57.530782
21
-117.217082
31
0.0
0
LINE
8
Default
62
4
5
23c
100
AcDbEntity
100
AcDbLine
10
57.530782
20
-117.217082
30
0.0
11
58.591233
21
-117.844044
31
0.0
0
LINE
8
Default
62
4
5
23d
100
AcDbEntity
100
AcDbLine
10
58.591233
20
-117.844044
30
0.0
11
59.171105
21
-118.548464
31
0.0
0
LINE
8
Default
62
4
5
23e
100
AcDbEntity
100
AcDbLine
10
59.171105
20
-118.548464
30
0.0
11
59.429223
21
-119.363510
31
0.0
0
LINE
8
Default
62
4
5
23f
100
AcDbEntity
100
AcDbLine
10
59.429223
20
-119.363510
30
0.0
11
59.516823
21
-120.380035
31
0.0
0
LINE
8
Default
62
4
5
240
100
AcDbEntity
100
AcDbLine
10
59.516823
20
-120.380035
30
0.0
11
59.516823
21
-135.896898
31
0.0
0
LINE
8
Default
62
4
5
241
100
AcDbEntity
100
AcDbLine
10
59.516823
20
-135.896898
30
0.0
11
59.516823
21
-151.413759
31
0.0
0
LINE
8
Default
62
4
5
242
100
AcDbEntity
100
AcDbLine
10
59.516823
20
-151.413759
30
0.0
11
59.415303
21
-152.492842
31
0.0
0
LINE
8
Default
62
4
5
243
100
AcDbEntity
100
AcDbLine
10
59.415303
20
-152.492842
30
0.0
11
59.112259
21
-153.370377
31
0.0
0
LINE
8
Default
62
4
5
244
100
AcDbEntity
100
AcDbLine
10
59.112259
20
-153.370377
30
0.0
11
58.515301
21
-154.050270
31
0.0
0
LINE
8
Default
62
4
5
245
100
AcDbEntity
100
AcDbLine
10
58.515301
20
-154.050270
30
0.0
11
57.530782
21
-154.606135
31
0.0
0
LINE
8
Default
62
4
5
246
100
AcDbEntity
100
AcDbLine
10
57.530782
20
-154.606135
30
0.0
11
56.692277
21
-154.838634
31
0.0
0
LINE
8
Default
62
4
5
247
100
AcDbEntity
100
AcDbLine
10
56.692277
20
-154.838634
30
0.0
11
55.419695
21
-155.040122
31
0.0
0
LINE
8
Default
62
4
5
248
100
AcDbEntity
100
AcDbLine
10
55.419695
20
-155.040122
30
0.0
11
54.327004
21
-155.167450
31
0.0
0
LINE
8
Default
62
4
5
249
100
AcDbEntity
100
AcDbLine
10
54.327004
20
-155.167450
30
0.0
11
53.441010
21
-155.253437
31
0.0
0
LINE
8
Default
62
4
5
24a
100
AcDbEntity
100
AcDbLine
10
53.441010
20
-155.253437
30
0.0
11
53.441010
21
-155.242403
31
0.0
0
LINE
8
Default
62
4
5
24b
100
AcDbEntity
100
AcDbLine
10
53.441010
20
-155.242403
30
0.0
11
53.441010
21
-155.231370
31
0.0
0
LINE
8
Default
62
4
5
24c
100
AcDbEntity
100
AcDbLine
10
53.441010
20
-155.231370
30
0.0
11
52.661150
21
-155.163472
31
0.0
0
LINE
8
Default
62
4
5
24d
100
AcDbEntity
100
AcDbLine
10
52.661150
20
-155.163472
30
0.0
11
51.741842
21
-155.018055
31
0.0
0
LINE
8
Default
62
4
5
24e
100
AcDbEntity
100
AcDbLine
10
51.741842
20
-155.018055
30
0.0
11
50.801180
21
-154.792010
31
0.0
0
LINE
8
Default
62
4
5
24f
100
AcDbEntity
100
AcDbLine
10
50.801180
20
-154.792010
30
0.0
11
49.969117
21
-154.488444
31
0.0
0
LINE
8
Default
62
4
5
250
100
AcDbEntity
100
AcDbLine
10
49.969117
20
-154.488444
30
0.0
11
48.395076
21
-153.666472
31
0.0
0
LINE
8
Default
62
4
5
251
100
AcDbEntity
100
AcDbLine
10
48.395076
20
-153.666472
30
0.0
11
46.960633
21
-152.627450
31
0.0
0
LINE
8
Default
62
4
5
252
100
AcDbEntity
100
AcDbLine
10
46.960633
20
-152.627450
30
0.0
11
45.676748
21
-151.425985
31
0.0
0
LINE
8
Default
62
4
5
253
100
AcDbEntity
100
AcDbLine
10
45.676748
20
-151.425985
30
0.0
11
44.547961
21
-150.178000
31
0.0
0
LINE
8
Default
62
4
5
254
100
AcDbEntity
100
AcDbLine
10
44.547961
20
-150.178000
30
0.0
11
40.384997
21
-145.124127
31
0.0
0
LINE
8
Default
62
4
5
255
100
AcDbEntity
100
AcDbLine
10
40.384997
20
-145.124127
30
0.0
11
36.206591
21
-139.946213
31
0.0
0
LINE
8
Default
62
4
5
256
100
AcDbEntity
100
AcDbLine
10
36.206591
20
-139.946213
30
0.0
11
32.322029
21
-135.085200
31
0.0
0
LINE
8
Default
62
4
5
257
100
AcDbEntity
100
AcDbLine
10
32.322029
20
-135.085200
30
0.0
11
29.042133
21
-131.045809
31
0.0
0
LINE
8
Default
62
4
5
258
100
AcDbEntity
100
AcDbLine
10
29.042133
20
-131.045809
30
0.0
11
32.110557
21
-127.944281
31
0.0
0
LINE
8
Default
62
4
5
259
100
AcDbEntity
100
AcDbLine
10
32.110557
20
-127.944281
30
0.0
11
34.558913
21
-125.462828
31
0.0
0
LINE
8
Default
62
4
5
25a
100
AcDbEntity
100
AcDbLine
10
34.558913
20
-125.462828
30
0.0
11
37.015758
21
-123.071110
31
0.0
0
LINE
8
Default
62
4
5
25b
100
AcDbEntity
100
AcDbLine
10
37.015758
20
-123.071110
30
0.0
11
40.046269
21
-120.291767
31
0.0
0
LINE
8
Default
62
4
5
25c
100
AcDbEntity
100
AcDbLine
10
40.046269
20
-120.291767
30
0.0
11
42.381279
21
-118.514670
31
0.0
0
LINE
8
Default
62
4
5
25d
100
AcDbEntity
100
AcDbLine
10
42.381279
20
-118.514670
30
0.0
11
44.731854
21
-117.342129
31
0.0
0
LINE
8
Default
62
4
5
25e
100
AcDbEntity
100
AcDbLine
10
44.731854
20
-117.342129
30
0.0
11
47.365625
21
-116.574115
31
0.0
0
LINE
8
Default
62
4
5
25f
100
AcDbEntity
100
AcDbLine
10
47.365625
20
-116.574115
30
0.0
11
50.557573
21
-116.069591
31
0.0
0
LINE
8
Default
62
4
5
260
100
AcDbEntity
100
AcDbLine
10
50.557573
20
-116.069591
30
0.0
11
50.557573
21
-114.907390
31
0.0
0
LINE
8
Default
62
4
5
261
100
AcDbEntity
100
AcDbLine
10
50.557573
20
-114.907390
30
0.0
11
50.557573
21
-113.745188
31
0.0
  0
ENDSEC
  0
SECTION
  2
OBJECTS
  0
DICTIONARY
  5
C
330
0
100
AcDbDictionary
  3
ACAD_GROUP
350
D
  3
ACAD_MLINESTYLE
350
17
  0
DICTIONARY
  5
D
330
C
100
AcDbDictionary
  0
DICTIONARY
  5
1A
330
C
100
AcDbDictionary
  0
DICTIONARY
  5
17
330
C
100
AcDbDictionary
  3
STANDARD
350
18
  0
DICTIONARY
  5
19
330
C
100
AcDbDictionary
  0
ENDSEC
  0
EOF
